Page 1 of 1

Intro

PostPosted:Thu May 04, 2006 6:24 pm
by b weird
I noticed that there was no intro for this song so I decided to try and figure it out. Well here it is. |-------------------------------0--------------- |-------------------------------2--------------- |-------------------------------2--------------- |-------------------------------2--------------- |-0---0---------0---------------0--------------- |---0---0--2--4----0----2---4------------------- I'd rather be

Re: Intro

PostPosted:Thu May 04, 2006 6:26 pm
by b weird
b weird wrote: |-------------------------------0--------------- |-------------------------------2--------------- |-------------------------------2--------------- |-------------------------------2--------------- |-0---0---------0---------------0--------------- |---0---0--2--4----0----2---4------------------- I'd rather be

PostPosted:Thu May 04, 2006 6:28 pm
by b weird
Sorry for the double post but I was trying to fix the tab but, as you can see I didn't do too good.

PostPosted:Thu May 04, 2006 7:28 pm
by Billbbill
b, are you checking your post with the preview option before you submit? It's a good idea to check it out that way if you aren't already, Which I suspect you are not. I keep checking the preview, changing stuff around, check the preview again etc. until it lines up correctly. If you're already doing this, I'm not sure what's goin wrong.

PostPosted:Fri May 05, 2006 7:51 am
by b weird
Yeah, I preview my posts all the time to check my spelling. Maybe its my computers fault. I dont know. :-? Maybe the best thing to do is to not tab anything.

PostPosted:Fri May 05, 2006 10:18 am
by Billbbill
So it looks alright in the preview, but comes out all discombobulated? Maybe your pc's settings?

PostPosted:Fri May 05, 2006 3:48 pm
by tigerstrat
are you using the tab creator at the top of the page?

PostPosted:Tue May 15, 2007 5:13 pm
by ker1227
was wondering if someone could show me a simple srum paterm with the bass in it, im still learning so it dosnt have to be fancey.

PostPosted:Wed May 16, 2007 7:05 am
by mutant_dan
Just cleaning up the original post. I know nothing about the accuracy of this version.

|-------------------------------0---------------
|-------------------------------2---------------
|-------------------------------2---------------
|-------------------------------2---------------
|-0---0---------0---------------0---------------
|---0---0--2--4----0----2---4-------------------

Image

PostPosted:Wed May 16, 2007 9:08 am
by ronster
I do it this way. Use a capo at the second fret to bring it from G to A. This is close to the 1970 versions of this song.

E|--------------3---------------------------------------------
B|--------------0----------3-------0--------------1-----------
G|-------------------------2-------0--------------------0-----
D|----------------------0----------------------------2--------
A|-----------------2h3-------------------0--2--3--------------
E|--0--1--2--3----------------2h3-----3-----------------------