#166722  by ebick
 Wed Jan 01, 2020 5:58 pm
I was going over this one tonight, and what I had for the intro was off a bit.

Here's what I get now
Code: Select all
    G  (no change)
E---------------10--12--13--10--12--10----------------------
B-------11--12----------------------------------------------
G-----------------------------------------------------------
D-----------------------------------------------------------
A-----------------------------------------------------------
E-----------------------------------------------------------
    F  (no change)
E----------------8--10--11--8---10--8-----------------------
B--------9--10----------------------------------------------
G-----------------------------------------------------------
D-----------------------------------------------------------
A-----------------------------------------------------------
E-----------------------------------------------------------
    C
E----------8------8-----------------------------------------
B--------8----11------8-------------------------------------
G----6^9-----------------10--8/9----------------------------
D---------------------------------10------------------------
A-----------------------------------------------------------
E-----------------------------------------------------------
Bear62 liked this